Teknik Penjarian (Finggering)

Teknik Penjarian ( Fingering)
    Banyak cara yang dilakukan pada teknik penjarian ini ,yang terpenting semuanya bertujuan yang sama yaitu untuk memperlancar teknik dalam penjarian ,picking , sehingga kita dapat bermain dengan baik dalam tempo lambat ,sedang ,maupun kecepatan yang sangat cepat
    Biasanya gitaris - gitaris yang telah ternama didunia seperti yngwie malmsteen ,John petrucci ,Joe satriani ,Steve vai dan masih banyak lagi , mereka membuat pola mereka sendiri dalam teknik fingeringnya dengan ciri khas mereka masing – masing.
Disini saya akan memberikan teknik finggering yang sering umum dipakai dalam berbagai beragam style :
    Latihlah pada pola dibawah ini dengan tempo yang lambat dulu secara berulang – ulang kemudian berlanjut dengan kecepatan yang semakin tinggi :
Latihan 1

|-----------|

|-----------|

|-----------|

|-----------|

|-----------|

|--1-2-3-4--|


    Ingat..!! selalu membiasakan penjarian dengan posisi yang lambat dulu seperti seorang bayi pasti tidak bisa langsung berjalan layaknya orang dewasa ,disini diperlukan kesabaran dan ketekunan.
    Selanjutnya latihlah dengan pola dibawah ini dengan menggunakan seluruh senar dan keempat jari-jari dan gunakan dengan alternative picking atau sistem picking bolak balik (up down) :
Latihan 2
|-----------------------------------------1-2-3-4-----|
|---------------------------------1-2-3-4-------------|
|-------------------------1-2-3-4---------------------|
|-----------------1-2-3-4-----------------------------|
|---------1-2-3-4-------------------------------------|
|-1-2-3-4---------------------------------------------|

Latihan 3
|-----------------------------------------1-2-3-4-----------------------------------------|
|---------------------------------1-2-3-4---------1-2-3-4---------------------------------|
|-------------------------1-2-3-4-------------------------1-2-3-4-------------------------|
|-----------------1-2-3-4-----------------------------------------1-2-3-4-----------------|
|---------1-2-3-4---------------------------------------------------------1-2-3-4---------|
|-1-2-3-4-------------------------------------------------------------------------1-2-3-4-|

Latihan 4
|-----------------------------------------4-3-2-1-----------------------------------------|
|---------------------------------4-3-2-1---------4-3-2-1---------------------------------|
|-------------------------4-3-2-1-------------------------4-3-2-1-------------------------|
|-----------------4-3-2-1-----------------------------------------4-3-2-1-----------------|
|---------4-3-2-1---------------------------------------------------------4-3-2-1---------|
|-4-3-2-1-------------------------------------------------------------------------4-3-2-1-|

Latihan 5
|-----------------------------------------1-3-2-4-----|
|---------------------------------1-3-2-4-------------|
|-------------------------1-3-2-4---------------------|
|-----------------1-3-2-4-----------------------------|
|---------1-3-2-4-------------------------------------|
|-1-3-2-4---------------------------------------------|



Latihan 6
|-----------------------------------------1-4-2-3-----|
|---------------------------------1-4-2-3-------------|
|-------------------------1-4-2-3---------------------|
|-----------------1-4-2-3-----------------------------|
|---------1-4-2-3-------------------------------------|
|-1-4-2-3---------------------------------------------|

Latihan 7
|-----------------------------------------1-4-3-2-----|
|---------------------------------1-4-3-2-------------|
|-------------------------1-4-3-2---------------------|
|-----------------1-4-3-2-----------------------------|
|---------1-4-3-2-------------------------------------|
|-1-4-3-1---------------------------------------------|




Latihan 8




|-----------------------------------------1-2-4-3-----|
|---------------------------------1-2-4-3-------------|
|-------------------------1-2-4-3---------------------|
|-----------------1-2-4-3-----------------------------|
|---------1-2-4-3-------------------------------------|
|-1-2-4-3---------------------------------------------|

Semua Latihan pola diatas adalah sekumpulan pola penjarian dari sekian banyak tetapi kunci dari semuanya itu selalu memulainya dengan tempo lambat dan selalu membiasakan dengan memakai metronome.
Nah sampai sini dulu pembahasan kita,,!!
Selamat latihan…!!!

agus_roynal87@yahoo.com
Anda baru saja membaca artikel yang berkategori Finggering dengan judul Teknik Penjarian (Finggering). Anda bisa bookmark halaman ini dengan URL http://belajargitarku.blogspot.com/2010/11/teknik-penjarian-finggering_22.html. Terima kasih!
Ditulis oleh: Blog - 22 Nov 2010