sweep picking


Mungkin teknik sweep picking tak akan pernah ketinggalan dalam suatu permainan gitar, banyak kalangan gitaris mengatakan bahwa teknik ini indentik dengan seorang gitaris YNGWIE MALMSTEEN. Hal ini mungkin dapat dibenarkan karena Yngwie lah yang sangat dikenal disini dan dia banyak menggunakan teknik ini dalam permainan gitarnya padahal masih banyak lagi musisi aliran neo-classic yang menggunakan teknik ini
Permainan teknik sweeping identik dengan kecepatan meskipun metodenya dibilang cukup sederhana namun untuk mempraktekannya membutuhkan latihan yang cukup teliti dan memakan waktu yang lama,dibutuhkan kesabaran dalam memaksimalkan permaianan sweeping ini.

Teknik ini pada dasarnya adalah bagian dari teknik arpeggio yaitu membunyikan satu nada untuk setiap senarnya seperti kita memainkan sebuah chord bedanya disini setiap kita membunyikan nada berikutnya ,nada sebelumnya tidak boleh sama sekali berbunyi (mute) apabila dilakukan dengan cepat tentu tidak mungkin dengan alternative picking (up-down picking)

Sweeping berarti menyapu ,jadi memainkan teknik sweep picking ini dengan cara menyapu,yaitu down stroke ( memetik senar dengan pick dengan kearah bawah) dari senar terbesar ke senar terkecil dan up-stroke (memetik senar keatas) dari senar terkecil hingga ke senar besar

Contoh sweeping yang sederhana :

|------------------9-12p9-‌‌‌--------|---------
|---------------10--------10------|---------
|------------9---------------9----|---------
|--------11--------------------11-|---------
|-----12--------------------------|-12------
|---------------------------------|---------
              ^   ^     ^     ^   ^   v       v    v   v        v    
^  = down-stroke atau memetik senar dengan cara kebawah
v  = up-stroke atau memetik senar dengan cara keatas
p  dan h = pull-on dan hammer-on membunyikan dua nada bergantian dengan satu petikan

berikut contoh sweeping Am yang sering diaplikasikan oleh Yngwie malmsteen :

|---5p0-------0-8p5-------5-12p8-‌-----|----8-17p12----------12-20p17--------
|-------1---1-------5---5--------10---|-10---------13----13----------17-----
|---------2-----------5-------------9-|---------------14----------------17--
|-------------------------------------|-------------------------------------
|-------------------------------------|-------------------------------------
|-------------------------------------|-------------------------------------
        v      v  ^   ^   ^  v     v    ^   ^  ^  v       v     ^       ^     ^  v          v       ^   ^    ^   v           v     ^

sekian dulu artikel saya …selamat menc^OO^ba . . . .
agroy rocker

Anda baru saja membaca artikel yang berkategori Arpeggio / Belajar Picking / Sweep Picking dengan judul sweep picking. Anda bisa bookmark halaman ini dengan URL http://belajargitarku.blogspot.com/2011/02/sweep-picking.html. Terima kasih!
Ditulis oleh: Blog - 11 Feb 2011