Teknik Arpeggio

 Mungkin dalam dunia deretan gitaris teknik arpeggio itu gak selalu terabaikan baik dalam segi aliran rock ,jazz ,klasik maupun lainnya, nah sekarang Apakah arpeggio itu? Arpeggio itu merupakan pecahan dari suatu chord yang terbentuk , nih salah satu chord yang terbentuk dan kita pecah-pecahkan sehingga menjadi sebuah arpeggio :

Latihan 1
|----------2---------------|
|--------3---3-------------|
|------2--------2----------|
|----0------------0--------|
|--------------------------|
|--------------------------|



Pola arpeggio diatas merupakan susunan dari achord D yang mana mempunyai susunan D-F#-A namun nada tersebut tidak ditekan sekali serempak bersamaan tapi secara terpisah nadanya satu persatu sehingga menghasilkan suatu melodik yang harmonis.lihat pada pola dibawah ini :


Latihan 2 . Arpeggio D
|---2-------2-5-----‌‌‌‌‌--|-5--10----------10-14---|
|-----3---3-----7---7-|-------10----10---------|
|-------2---------7---|----------11------------|
|---------------------|------------------------|
|---------------------|------------------------|
|---------------------|------------------------|
Nah… ini contoh arpeggio yang sering digunakan para gitaris-gitaris dunia seperti yngwie mamlsteen ,Jason becker dan lainnya :
Latihan 3 .arpeggio Am
|------------------12---‌‌‌----|-----------
|---------------13----13----|-----------
|------------14----------14-|-----------
|--------14-----------------|-14--------
|--12-15--------------------|----15-12--
|---------------------------|-----------


Nah… sekian dulu artikel dari saya semoga dapat bermanfaat
GO TO ROCK
Selamat belajar……!!!agus_roynal87@yahoo.com
Anda baru saja membaca artikel yang berkategori Arpeggio dengan judul Teknik Arpeggio. Anda bisa bookmark halaman ini dengan URL http://belajargitarku.blogspot.com/2010/11/teknik-arpeggio.html. Terima kasih!
Ditulis oleh: Blog - 23 Nov 2010