Bad English - When I See You Smile .Tablature

Gara2 Nonton Indonesia Idol wahh keren tuh yoda peserta idol membawakan lagu Bad English yang judulnya When I See You Smile,,jadi teringat masa2 lagu rocker2 dulu hehe..tenang aja gan tablature n lirik beserta chordnya uda ane buat..cekidot
 ---------------------------------------------------------
G                               C
Sometimes I wonder how I'd ever make it through,
                           Am                          D
Through this world without having you, I just wouldn't have a clue
G                                                   C
'Cause sometimes it seems like this world's closing in on me,
                      Am                                D
And there's no way of breaking free, and then I see you reach for me
C                 G/B               Am              
Sometimes I wanna give up, I wanna give in, I wanna quit the fight
C                   G/B        D                    
And then I see you, baby, and everything's alright, everything's alright


(chorus)
G      D       C                     G         D            C                 D
When I see you smile, I can face the world, oh oh, you know I can do anything
G      D       C                     G         D            C
When I see you smile, I see a ray of light, oh oh, I see it shining right

through the rain
       Am                D                         G
When I see you smile, oh yeah, baby when I see you smile at me

(VII)
G                                             C
Baby there's nothing in this world that could ever do
                     Am                                    D
What a touch of your hand can do, it's like nothing that I ever knew
C                    G/B                Am                    
And when the rain is falling, I don't feel it, 'cause you're here with me now
C                   G/B       D                         
And one look at you baby, is all I'll ever need, you're all I'll ever need

(chorus)

C                 G/B                Am              
Sometimes I wanna give up, I wanna give in, I wanna quit the fight
C                  G/B        D                     
And then I see you baby, and everythings alright, everything's alright
G
So right...

(Instrumental break)

solo nya tab nya ada dibawah bro....


A      E       D                     A         E            D                 E
When I see you smile, I can face the world, oh oh, you know I can do anything
A      E       D                     A         E            D   
When I see you smile, I see a ray of light, oh oh, I see it shining right
E
through the rain, yeah
A      E       D                     A         E            D                  
When I see you smile, I can face the world, oh oh, you know I can do anything
       Bm                E                         A    D  Bm       A 
When I see you smile, oh yeah, baby when I see you smile,  smile at me
 

solo gitarnya gan :

     H        T T T T T T T T T T T T  E     H        E   E   E   E  
E||---------------------------------0-10--|--L--------7--10--12------|
B||---------------------------0-1-3-------|----------------------12--|
G||-----------------------0-2-------------|--------------------------|
D||-----------------0-2-4-----------------|--------------------------|
A||-----------0-2-3-----------------------|--------------------------|
E||---------------------------------------|--------------------------|


   Q.      Q.     S  S  S  S     H         E   E   E   E  
----------15------L-14-12-10-|--12------------10--12--12--|
--12-------------------------|------------12--------------|
-----------------------------|----------------------------|
-----------------------------|----------------------------|
-----------------------------|----------------------------|
-----------------------------|----------------------------|


  Q     Q     T  T  T  T  S  S  S  S  S  S    W                 
--L----19----16-17-16----------------------|-------------------||
----------------------17-17-15-------------|-------------------||
-------------------------------16-14-13----|-------------------||
----------------------------------------14-|--L----------------||
-------------------------------------------|-------------------||
-------------------------------------------|-------------------||
selamat ngejreng2 ria.....

Tablature lainnya : 
Anda baru saja membaca artikel yang berkategori Bad English / Chord / Tab / Tabature dengan judul Bad English - When I See You Smile .Tablature. Anda bisa bookmark halaman ini dengan URL http://belajargitarku.blogspot.com/2012/05/bad-english-when-i-see-you-smile.html. Terima kasih!
Ditulis oleh: Blog - 4 Mei 2012